网站首页 手机版 网站地图 TAG标签

当前位置: 主页 > 吉他 > 吉他曲谱 > TXT吉他谱 >

Avril吉他谱《I Always Get What I Want》

更新时间:2017-02-17    来源/发布:yueqixuexi.com    作者/编辑:乐器学习网
歌曲名/吉他谱: I Always Get What I Want
歌手/乐队:Avril Lavigne(艾微儿)
编配者(转载来源):www.17hai.cn
-------------------------------------------------------------------------------

Intro
    B      E      A      D
|--x-x---x-x-x---x-x---x-x-x--|
|--x-x---x-x-x---x-x---x-x-x--|
|--x-x---9-9-9---x-x---7-7-7--|
|--9-9---9-9-9---7-7---7-7-7--|
|--9-9---7-7-7---7-7---5-5-5--|
|--7-7---x-x-x---5-5---x-x-x--|

Verse (palm muted)
     B       A      Em      F#
|--x-x-x---x-x-x---x-x-x---x-x-x--|
|--x-x-x---x-x-x---x-x-x---x-x-x--|
|--x-x-x---x-x-x---x-x-x---x-x-x--|
|--9-9-9---7-7-7---2-2-2---4-4-4--|
|--9-9-9---7-7-7---2-2-2---4-4-4--|
|--7-7-7---5-5-5---0-0-0---2-2-2--|


Pre Chorus
   B
|--x--|
|--x--|
|--x--|
|--9--|
|--9--|
|--7--|

Chorus
    B      E      A      D
|--x-x---x-x-x---x-x---x-x-x--|
|--x-x---x-x-x---x-x---x-x-x--|
|--x-x---9-9-9---x-x---7-7-7--|
|--9-9---9-9-9---7-7---7-7-7--|
|--9-9---7-7-7---7-7---5-5-5--|
|--7-7---x-x-x---5-5---x-x-x--|

Post Chorus #1
     B       A       Em      F#
|--x-x-x---x-x-x---x-x-x---x-x-x--|
|--x-x-x---x-x-x---x-x-x---x-x-x--|
|--x-x-x---x-x-x---x-x-x---x-x-x--|
|--9-9-9---7-7-7---2-2-2---4-4-4--|
|--9-9-9---7-7-7---2-2-2---4-4-4--|
|--7-7-7---5-5-5---0-0-0---2-2-2--|

Post Chorus #2
   B   A   F#  Em
|--x---x---x---x--|
|--x---x---x---x--|
|--x---x---x---x--|
|--9---7---4---2--|        
|--9---7---4---2--|
|--7---5---2---0--|

Bridge (palm muted)
    D#    B                C#
|--x-x---x-x--| x3 then |--x--| x16
|--x-x---x-x--|         |--x--|
|--8-8---x-x--|         |--6--|
|--8-8---9-9--|         |--6--|
|--6-6---9-9--|         |--4--|
|--x-x---7-7--|         |--x--|

Intro x 2 with palm muting
Intro x 2

Verse x 3

Pre Chorus x2

Chorus x4

Post Chorus #1 x2

Verse x3

Pre Chorus x 2

Chorus x4

Chorus with palm muting x3

Post Chorus #2 x1

Chorus x2

Verse x3

Pre Chorus x1

Chorus x4

Chorus with palm muting x3

Post Chorus #2 x1

Bridge

Chorus x4

Chorus with palm muting x3

Post Chorus #2 x2


本文标签

Avril吉他谱

精彩专题

曲谱下载TOP30榜

本站简介- 站内公告- 原创投稿- 广告服务- 版权声明- 联系我们 - 手机访问
Copyright @ 2008-2018 乐器学习网 online services. Security support by yueqixuexi.com