网站首页 手机版 网站地图 TAG标签

当前位置: 主页 > 吉他 > 吉他曲谱 > TXT吉他谱 >

Avril吉他谱《Avril Lavigne - He wasn‘t》

更新时间:2017-02-17    来源/发布:yueqixuexi.com    作者/编辑:乐器学习网
Intro and Verse
E -----------------------------------------------------------|
B-----------------------------------------------------------|
G---7-7-7-7-7--7-7-7-7-7--7--7-5-5-5-5--5--5-5-5-5-5--5--5--|
D---7-7-7-7-7--7-7-7-7-7--7--7-5-5-5-5--5--5-5-5-5-5--5--5--|
A---0-5-5-5-5--0-5-5-5-5--5--5-0-3-3-3--3--0-3-3-3-3--3--3--|
E-----------------------------------------------------------|

E------------------------------------------------------------------|
B------------------------------------------------------------------|
G---3--x-x--------3-3-3-3--2-2-2-2---------------------------------|
D---3--x-x--------3-3-3-3--2-2-2-2---------------------------------|
A---1--x-x--------1-1-1-1--0-0-0-0---------------------------------|
E------------------------------------------------------------------|
Pre Chorus:
E------------------------------------------------------------|
B------------------------------------------------------------|
G------------------------------------------------------------|
D---3--3--3-3---2--2--2-2---3--3--3-3------2--let ring-------|
A---3--3--3-3---2--2--2-2---3--3--3-3------2----a little-----|
E---1--1--1-1---0--0--0-0---1--1--1-1------0-----------------|

Chorus:
E-------------------------------------------------------------------|
B-------------------------------------------------------------------|
G---7-7-7-7-7-7-7-7-7-7-7-7-7-7-7-7---------------------------------|
D---7-7-7-7-7-7-7-7-7-7-7-7-7-7-7-7-5-5-5-5-5-5-5-5-5-5-5-5-5-5-5-5-|X2
A---5-5-5-5-5-5-5-5-5-5-5-5-5-5-5-5-5-5-5-5-5-5-5-5-5-5-5-5-5-5-5-5-|
E-----------------------------------3-3-3-3-3-3-3-3-3-3-3-3-3-3-3-3-|

Post Chorus (first time):
E-------------------------------------------------------|
B-------------------------------------------------------|
G---7-x-x-x-7-x-x-x-7-x-x-x--5/7-x-7-x-x-x-7---pick-----|
D---7-x-x-x-7-x-x-x-7-x-x-x--5/7-x-7-x-x-x-7-----slide--|
A---5-x-x-x-5-x-x-x-5-x-x-x--3/5-x-5-x-x-x-5------------|
E-------------------------------------------------------|

After this play this:
E-----------------------------------------------------------|
B-----------------------------------------------------------|
G---7-7-7-7-7--7-7-7-7-7--7--7-5-5-5-5--5--5-5-5-5-5--5--5--|
D---7-7-7-7-7--7-7-7-7-7--7--7-5-5-5-5--5--5-5-5-5-5--5--5--|
A---0-5-5-5-5--0-5-5-5-5--5--5-0-3-3-3--3--0-3-3-3-3--3--3--|
E-----------------------------------------------------------|

This part is after
E------------------------------------------------------------------|
B------------------------------------------------------------------|
G---3--x-x--------3-3-3-3--2-2-2-2---------------------------------|
D---3--x-x--------3-3-3-3--2-2-2-2---------------------------------|
A---1--x-x--------1-1-1-1--0-0-0-0---------------------------------|
E------------------------------------------------------------------|

E------------------------------------------------------------|
B------------------------------------------------------------|
G------------------------------------------------------------|
D---3--3--3-3---2--2--2-2---3--3--3-3------2--let ring-------|
A---3--3--3-3---2--2--2-2---3--3--3-3------2----a little-----|
E---1--1--1-1---0--0--0-0---1--1--1-1------0-----------------|

E------------------------------------------------------------------|
B------------------------------------------------------------------|
G--7-7-7-7-7-7-7-7-7-7-7-7-7-7-7-7---------------------------------|
D--7-7-7-7-7-7-7-7-7-7-7-7-7-7-7-7-5-5-5-5-5-5-5-5-5-5-5-5-5-5-5-5-| X2
A--5-5-5-5-5-5-5-5-5-5-5-5-5-5-5-5-5-5-5-5-5-5-5-5-5-5-5-5-5-5-5-5-|
E----------------------------------3-3-3-3-3-3-3-3-3-3-3-3-3-3-3-3-|

E------------------------------------------------------------------|
B------------------------------------------------------------------|
G--7-7-7-7-7-7-7-7-7-7-7-7-7-7-7-7---------------------------------|
D--7-7-7-7-7-7-7-7-7-7-7-7-7-7-7-7-5-5-5-5-5-5-5-5-5-5-5-5-5-5-5-5-| X2
A--5-5-5-5-5-5-5-5-5-5-5-5-5-5-5-5-5-5-5-5-5-5-5-5-5-5-5-5-5-5-5-5-|
E----------------------------------3-3-3-3-3-3-3-3-3-3-3-3-3-3-3-3-|

E----------------------------------------------------------|
B----------------------------------------------------------|
G---5--7--5---------7--9--7-----7--9--7------5--7--5-------|
D---5--7--5---------7--9--7-----7--9--7------5--7--5-------|  X2


本文标签

Avril吉他谱

精彩专题

曲谱下载TOP30榜

本站简介- 站内公告- 原创投稿- 广告服务- 版权声明- 联系我们 - 手机访问
Copyright @ 2008-2018 乐器学习网 online services. Security support by yueqixuexi.com